本谱浏览量: 网评:loading... 本谱选调: Eb调

吉他谱 第1页
吉他谱 第2页
吉他谱 第3页
吉他谱 第4页
吉他谱 第5页
吉他谱 第6页
吉他谱 第7页
吉他谱 第8页

:::: 欢迎对本谱点评 ::::
打分: 1分 2分分 3分分分 4分分分分 5分分分分分


登录状态:    是否参与打分:  

作者说明

-------------------------------------------------------------------------------
歌曲名:七里香 
歌手/乐队:周杰伦
编配者(转载来源):网络
-------------------------------------------------------------------------------
         Am   
e|-----------------0--------------------------repeat-------------------------|
B|-------1-3-1---1---3-1-------------3-5-3-1---------------------------------|
G|---0-2-----2---2-------2h5-2---2-5-----------------------------------------|
D|-------------2---------------5---------------------------------------------|
A|---------------------------------------------------------------------------|
E|---------------------------------------------------------------------------|
    Am      F       G       C
e|---------------------------------------------------------------------------|
B|--1---1---1---1---0---0---1---1--------------------------------------------|
G|--2---2---2---2---0---0---0---0--------------------------------------------|
D|---

::相关下载::


pdf格式琴谱下载pdf格式琴谱下载

::赞助商广告::


本曲难度参考

(难度:钢琴00 人投票)

友情提示:将鼠标移到你所认为的星上点击即可对该谱定级!

更多歌谱 相关钢琴谱TOP